ISO-10303-21;

HEADER;
FILE_DESCRIPTION();
FILE_NAME(
    /* name */ 'dropout_006____miterShape.stp'
);
FILE_SCHEMA(
    ('CONFIG_CONTROL_DESIGN')
);
ENDSEC;

DATA;
#10=SHAPE_REPRESENTATION_RELATIONSHIP('None',
'relationship between manfD6176gt3-None and manfD6176gt3-None',#94,#11);
#11=ADVANCED_BREP_SHAPE_REPRESENTATION('manfD6176gt3-None',(#95),#249);
#12=CC_DESIGN_APPROVAL(#24,(#82));
#13=CC_DESIGN_APPROVAL(#25,(#84));
#14=CC_DESIGN_APPROVAL(#26,(#31));
#15=APPROVAL_PERSON_ORGANIZATION(#69,#24,#18);
#16=APPROVAL_PERSON_ORGANIZATION(#70,#25,#19);
#17=APPROVAL_PERSON_ORGANIZATION(#71,#26,#20);
#18=APPROVAL_ROLE('approver');
#19=APPROVAL_ROLE('approver');
#20=APPROVAL_ROLE('approver');
#21=APPROVAL_DATE_TIME(#39,#24);
#22=APPROVAL_DATE_TIME(#40,#25);
#23=APPROVAL_DATE_TIME(#41,#26);
#24=APPROVAL(#27,' ');
#25=APPROVAL(#28,' ');
#26=APPROVAL(#29,' ');
#27=APPROVAL_STATUS('not_yet_approved');
#28=APPROVAL_STATUS('not_yet_approved');
#29=APPROVAL_STATUS('not_yet_approved');
#30=CC_DESIGN_SECURITY_CLASSIFICATION(#31,(#84));
#31=SECURITY_CLASSIFICATION(' ',' ',#32);
#32=SECURITY_CLASSIFICATION_LEVEL('confidential');
#33=CC_DESIGN_DATE_AND_TIME_ASSIGNMENT(#37,#35,(#82));
#34=CC_DESIGN_DATE_AND_TIME_ASSIGNMENT(#38,#36,(#31));
#35=DATE_TIME_ROLE('creation_date');
#36=DATE_TIME_ROLE('classification_date');
#37=DATE_AND_TIME(#52,#42);
#38=DATE_AND_TIME(#53,#43);
#39=DATE_AND_TIME(#54,#44);
#40=DATE_AND_TIME(#55,#45);
#41=DATE_AND_TIME(#56,#46);
#42=LOCAL_TIME(0,0,0.,#47);
#43=LOCAL_TIME(0,0,0.,#48);
#44=LOCAL_TIME(0,0,0.,#49);
#45=LOCAL_TIME(0,0,0.,#50);
#46=LOCAL_TIME(0,0,0.,#51);
#47=COORDINATED_UNIVERSAL_TIME_OFFSET(0,0,.BEHIND.);
#48=COORDINATED_UNIVERSAL_TIME_OFFSET(0,0,.BEHIND.);
#49=COORDINATED_UNIVERSAL_TIME_OFFSET(0,0,.BEHIND.);
#50=COORDINATED_UNIVERSAL_TIME_OFFSET(0,0,.BEHIND.);
#51=COORDINATED_UNIVERSAL_TIME_OFFSET(0,0,.BEHIND.);
#52=CALENDAR_DATE(0,1,1);
#53=CALENDAR_DATE(0,1,1);
#54=CALENDAR_DATE(0,1,1);
#55=CALENDAR_DATE(0,1,1);
#56=CALENDAR_DATE(0,1,1);
#57=CC_DESIGN_PERSON_AND_ORGANIZATION_ASSIGNMENT(#65,#61,(#82,#84));
#58=CC_DESIGN_PERSON_AND_ORGANIZATION_ASSIGNMENT(#66,#62,(#86));
#59=CC_DESIGN_PERSON_AND_ORGANIZATION_ASSIGNMENT(#67,#63,(#84));
#60=CC_DESIGN_PERSON_AND_ORGANIZATION_ASSIGNMENT(#68,#64,(#31));
#61=PERSON_AND_ORGANIZATION_ROLE('creator');
#62=PERSON_AND_ORGANIZATION_ROLE('design_owner');
#63=PERSON_AND_ORGANIZATION_ROLE('design_supplier');
#64=PERSON_AND_ORGANIZATION_ROLE('classification_officer');
#65=PERSON_AND_ORGANIZATION(#79,#72);
#66=PERSON_AND_ORGANIZATION(#79,#73);
#67=PERSON_AND_ORGANIZATION(#79,#74);
#68=PERSON_AND_ORGANIZATION(#79,#75);
#69=PERSON_AND_ORGANIZATION(#79,#76);
#70=PERSON_AND_ORGANIZATION(#79,#77);
#71=PERSON_AND_ORGANIZATION(#79,#78);
#72=ORGANIZATION(' ',' ',' ');
#73=ORGANIZATION(' ',' ',' ');
#74=ORGANIZATION(' ',' ',' ');
#75=ORGANIZATION(' ',' ',' ');
#76=ORGANIZATION(' ',' ',' ');
#77=ORGANIZATION(' ',' ',' ');
#78=ORGANIZATION(' ',' ',' ');
#79=PERSON(' ',' ',' ',(' '),$,$);
#80=SHAPE_DEFINITION_REPRESENTATION(#81,#94);
#81=PRODUCT_DEFINITION_SHAPE('','',#82);
#82=PRODUCT_DEFINITION(' ','',#84,#83);
#83=DESIGN_CONTEXT('',#93,'design');
#84=PRODUCT_DEFINITION_FORMATION_WITH_SPECIFIED_SOURCE(' ',' ',#86,.NOT_KNOWN.);
#85=PRODUCT_RELATED_PRODUCT_CATEGORY('detail','',(#86));
#86=PRODUCT('manfD6176gt3','manfD6176gt3',' ',(#91));
#87=PRODUCT_CATEGORY_RELATIONSHIP(' ',' ',#89,#90);
#88=PRODUCT_CATEGORY_RELATIONSHIP('','',#90,#85);
#89=PRODUCT_CATEGORY('part',' ');
#90=PRODUCT_CATEGORY(' ','');
#91=MECHANICAL_CONTEXT(' ',#93,'mechanical');
#92=APPLICATION_PROTOCOL_DEFINITION('international standard',
'config_control_design',1994,#93);
#93=APPLICATION_CONTEXT(
'configuration controlled 3D designs of mechanical parts and assemblies
');
#94=SHAPE_REPRESENTATION('manfD6176gt3-None',(#189),#249);
#95=MANIFOLD_SOLID_BREP('',#96);
#96=CLOSED_SHELL('',(#97,#98,#99,#100,#101,#102));
#97=ADVANCED_FACE('',(#109),#103,.T.);
#98=ADVANCED_FACE('',(#110),#104,.T.);
#99=ADVANCED_FACE('',(#111),#105,.T.);
#100=ADVANCED_FACE('',(#112),#106,.T.);
#101=ADVANCED_FACE('',(#113),#107,.F.);
#102=ADVANCED_FACE('',(#114),#108,.T.);
#103=PLANE('',#190);
#104=PLANE('',#191);
#105=PLANE('',#192);
#106=PLANE('',#193);
#107=PLANE('',#194);
#108=PLANE('',#195);
#109=FACE_OUTER_BOUND('',#115,.T.);
#110=FACE_OUTER_BOUND('',#116,.T.);
#111=FACE_OUTER_BOUND('',#117,.T.);
#112=FACE_OUTER_BOUND('',#118,.T.);
#113=FACE_OUTER_BOUND('',#119,.T.);
#114=FACE_OUTER_BOUND('',#120,.T.);
#115=EDGE_LOOP('',(#121,#122,#123,#124));
#116=EDGE_LOOP('',(#125,#126,#127,#128));
#117=EDGE_LOOP('',(#129,#130,#131,#132));
#118=EDGE_LOOP('',(#133,#134,#135,#136));
#119=EDGE_LOOP('',(#137,#138,#139,#140));
#120=EDGE_LOOP('',(#141,#142,#143,#144));
#121=ORIENTED_EDGE('',*,*,#153,.F.);
#122=ORIENTED_EDGE('',*,*,#154,.F.);
#123=ORIENTED_EDGE('',*,*,#155,.T.);
#124=ORIENTED_EDGE('',*,*,#156,.T.);
#125=ORIENTED_EDGE('',*,*,#157,.F.);
#126=ORIENTED_EDGE('',*,*,#156,.F.);
#127=ORIENTED_EDGE('',*,*,#158,.T.);
#128=ORIENTED_EDGE('',*,*,#159,.T.);
#129=ORIENTED_EDGE('',*,*,#160,.F.);
#130=ORIENTED_EDGE('',*,*,#159,.F.);
#131=ORIENTED_EDGE('',*,*,#161,.T.);
#132=ORIENTED_EDGE('',*,*,#162,.T.);
#133=ORIENTED_EDGE('',*,*,#163,.F.);
#134=ORIENTED_EDGE('',*,*,#162,.F.);
#135=ORIENTED_EDGE('',*,*,#164,.T.);
#136=ORIENTED_EDGE('',*,*,#154,.T.);
#137=ORIENTED_EDGE('',*,*,#155,.F.);
#138=ORIENTED_EDGE('',*,*,#164,.F.);
#139=ORIENTED_EDGE('',*,*,#161,.F.);
#140=ORIENTED_EDGE('',*,*,#158,.F.);
#141=ORIENTED_EDGE('',*,*,#153,.T.);
#142=ORIENTED_EDGE('',*,*,#157,.T.);
#143=ORIENTED_EDGE('',*,*,#160,.T.);
#144=ORIENTED_EDGE('',*,*,#163,.T.);
#145=VERTEX_POINT('',#224);
#146=VERTEX_POINT('',#225);
#147=VERTEX_POINT('',#227);
#148=VERTEX_POINT('',#229);
#149=VERTEX_POINT('',#233);
#150=VERTEX_POINT('',#235);
#151=VERTEX_POINT('',#239);
#152=VERTEX_POINT('',#241);
#153=EDGE_CURVE('',#145,#146,#165,.T.);
#154=EDGE_CURVE('',#147,#145,#166,.T.);
#155=EDGE_CURVE('',#147,#148,#167,.T.);
#156=EDGE_CURVE('',#148,#146,#168,.T.);
#157=EDGE_CURVE('',#146,#149,#169,.T.);
#158=EDGE_CURVE('',#148,#150,#170,.T.);
#159=EDGE_CURVE('',#150,#149,#171,.T.);
#160=EDGE_CURVE('',#149,#151,#172,.T.);
#161=EDGE_CURVE('',#150,#152,#173,.T.);
#162=EDGE_CURVE('',#152,#151,#174,.T.);
#163=EDGE_CURVE('',#151,#145,#175,.T.);
#164=EDGE_CURVE('',#152,#147,#176,.T.);
#165=LINE('',#223,#177);
#166=LINE('',#226,#178);
#167=LINE('',#228,#179);
#168=LINE('',#230,#180);
#169=LINE('',#232,#181);
#170=LINE('',#234,#182);
#171=LINE('',#236,#183);
#172=LINE('',#238,#184);
#173=LINE('',#240,#185);
#174=LINE('',#242,#186);
#175=LINE('',#244,#187);
#176=LINE('',#245,#188);
#177=VECTOR('',#198,1.);
#178=VECTOR('',#199,1.);
#179=VECTOR('',#200,1.);
#180=VECTOR('',#201,1.);
#181=VECTOR('',#204,1.);
#182=VECTOR('',#205,1.);
#183=VECTOR('',#206,1.);
#184=VECTOR('',#209,1.);
#185=VECTOR('',#210,1.);
#186=VECTOR('',#211,1.);
#187=VECTOR('',#214,1.);
#188=VECTOR('',#215,1.);
#189=AXIS2_PLACEMENT_3D('',#222,#196,#197);
#190=AXIS2_PLACEMENT_3D('',#231,#202,#203);
#191=AXIS2_PLACEMENT_3D('',#237,#207,#208);
#192=AXIS2_PLACEMENT_3D('',#243,#212,#213);
#193=AXIS2_PLACEMENT_3D('',#246,#216,#217);
#194=AXIS2_PLACEMENT_3D('',#247,#218,#219);
#195=AXIS2_PLACEMENT_3D('',#248,#220,#221);
#196=DIRECTION('',(0.,0.,1.));
#197=DIRECTION('',(1.,0.,0.));
#198=DIRECTION('',(-1.,0.,-1.73472347597681E-016));
#199=DIRECTION('',(0.,1.,0.));
#200=DIRECTION('',(-1.,0.,-1.73472347597681E-016));
#201=DIRECTION('',(0.,1.,0.));
#202=DIRECTION('',(1.73472347597681E-016,0.,-1.));
#203=DIRECTION('',(-1.,0.,-1.73472347597681E-016));
#204=DIRECTION('',(0.,0.,1.));
#205=DIRECTION('',(0.,0.,1.));
#206=DIRECTION('',(0.,1.,0.));
#207=DIRECTION('',(-1.,0.,0.));
#208=DIRECTION('',(0.,0.,1.));
#209=DIRECTION('',(0.939692620785908,0.,-0.342020143325669));
#210=DIRECTION('',(0.939692620785908,0.,-0.342020143325669));
#211=DIRECTION('',(0.,1.,0.));
#212=DIRECTION('',(0.342020143325669,0.,0.939692620785909));
#213=DIRECTION('',(0.939692620785909,0.,-0.342020143325669));
#214=DIRECTION('',(0.342020143325666,0.,-0.939692620785909));
#215=DIRECTION('',(0.342020143325666,0.,-0.939692620785909));
#216=DIRECTION('',(0.939692620785909,0.,0.342020143325666));
#217=DIRECTION('',(0.342020143325666,0.,-0.939692620785909));
#218=DIRECTION('',(0.,1.,0.));
#219=DIRECTION('',(0.,0.,1.));
#220=DIRECTION('',(0.,1.,0.));
#221=DIRECTION('',(0.,0.,1.));
#222=CARTESIAN_POINT('',(0.,0.,0.));
#223=CARTESIAN_POINT('',(24.6946595962939,100.,-16.3899059526481));
#224=CARTESIAN_POINT('',(24.6946595962939,100.,-16.3899059526481));
#225=CARTESIAN_POINT('',(-15.3053404037061,100.,-16.3899059526481));
#226=CARTESIAN_POINT('',(24.6946595962939,-100.,-16.3899059526481));
#227=CARTESIAN_POINT('',(24.6946595962939,-100.,-16.3899059526481));
#228=CARTESIAN_POINT('',(24.6946595962939,-100.,-16.3899059526481));
#229=CARTESIAN_POINT('',(-15.3053404037061,-100.,-16.3899059526481));
#230=CARTESIAN_POINT('',(-15.3053404037061,-100.,-16.3899059526481));
#231=CARTESIAN_POINT('',(24.6946595962939,-100.,-16.3899059526481));
#232=CARTESIAN_POINT('',(-15.3053404037061,100.,-16.3899059526481));
#233=CARTESIAN_POINT('',(-15.3053404037061,100.,23.6100940473519));
#234=CARTESIAN_POINT('',(-15.3053404037061,-100.,-16.3899059526481));
#235=CARTESIAN_POINT('',(-15.3053404037061,-100.,23.6100940473519));
#236=CARTESIAN_POINT('',(-15.3053404037061,-100.,23.6100940473519));
#237=CARTESIAN_POINT('',(-15.3053404037061,-100.,-16.3899059526481));
#238=CARTESIAN_POINT('',(-15.3053404037061,100.,23.6100940473519));
#239=CARTESIAN_POINT('',(14.020812759394,100.,12.9362472104519));
#240=CARTESIAN_POINT('',(-15.3053404037061,-100.,23.6100940473519));
#241=CARTESIAN_POINT('',(14.020812759394,-100.,12.9362472104519));
#242=CARTESIAN_POINT('',(14.020812759394,-100.,12.9362472104519));
#243=CARTESIAN_POINT('',(-15.3053404037061,-100.,23.6100940473519));
#244=CARTESIAN_POINT('',(14.020812759394,100.,12.9362472104519));
#245=CARTESIAN_POINT('',(14.020812759394,-100.,12.9362472104519));
#246=CARTESIAN_POINT('',(14.020812759394,-100.,12.9362472104519));
#247=CARTESIAN_POINT('',(-15.3053404037061,-100.,-16.3899059526481));
#248=CARTESIAN_POINT('',(-15.3053404037061,100.,-16.3899059526481));
#249=(
GEOMETRIC_REPRESENTATION_CONTEXT(3)
GLOBAL_UNCERTAINTY_ASSIGNED_CONTEXT((#250))
GLOBAL_UNIT_ASSIGNED_CONTEXT((#256,#252,#251))
REPRESENTATION_CONTEXT('dropout_006____miterShape',
'TOP_LEVEL_ASSEMBLY_PART')
);
#250=UNCERTAINTY_MEASURE_WITH_UNIT(LENGTH_MEASURE(2.E-005),#256,
'DISTANCE_ACCURACY_VALUE','Maximum Tolerance applied to model');
#251=(
NAMED_UNIT(*)
SI_UNIT($,.STERADIAN.)
SOLID_ANGLE_UNIT()
);
#252=(
CONVERSION_BASED_UNIT('DEGREE',#254)
NAMED_UNIT(#253)
PLANE_ANGLE_UNIT()
);
#253=DIMENSIONAL_EXPONENTS(0.,0.,0.,0.,0.,0.,0.);
#254=PLANE_ANGLE_MEASURE_WITH_UNIT(PLANE_ANGLE_MEASURE(0.0174532925),#255);
#255=(
NAMED_UNIT(*)
PLANE_ANGLE_UNIT()
SI_UNIT($,.RADIAN.)
);
#256=(
LENGTH_UNIT()
NAMED_UNIT(*)
SI_UNIT(.MILLI.,.METRE.)
);
ENDSEC;
END-ISO-10303-21;
